Hoy es sabado 25 de mayo de 2019 y son las 13:22 hs. ULTIMOS TITULOS: Marcos Peña, tras la homilía de Poli: "Estamos hablando de cosas parecidas" / Fórmula 1: un error eliminó rápido a Leclerc y Lewis Hamilton volvió a hacer la pole / Murió el chofer de Urtubey tras un choque en la ruta 9 / Elecciones, grieta y pobreza: diez frases del arzobispo Poli en el tedeum / Imparable: los tries de Ramiro Moyano, el lince tucumano de los Jaguares / Imhoff y Cordero, afuera: Ledesma dio la preselección de los Pumas para el Mundial con algunas bajas resonantes / En el Día de la Patria, el Gobierno lanzó un premio para los argentinos en el exterior / Tedeum: frente a Macri, Poli pidió "un gran pacto nacional sin intereses sectoriales" / La agenda de la TV: el debut del Sub 20 en el Mundial y Messi en la final de la Copa del Rey / Super Rugby: otro gran triunfo de Jaguares, que quedó más cerca de la clasificación / Hito de una empresa: la soja argentina ya se siembra en China / En la fecha patria, el Top 12 propone un clásico: Alumni vs. Belgrano / El desencanto con Holan llega a palabras mayores: reunión de jugadores y directivos con el DT rojo / El affaire de las camisetas no fue gratuito: multa de 200.000 pesos a Argentinos / Un sepelio singular: el cuerpo de Lauda será enterrado con un buzo antiflama / Showmatch 2019: Patricia Sosa, Lucía Galán y Valeria Lynch emocionaron con su versión del Himno Nacional Argentino / Tamberos en lenta recuperación / De problema a negocio: exportarán vacunas antiaftosa a Corea del Sur / Tigre intenta completar la obra maestra: defiende en Tucumán su 5 a 0 / Genios de la Argentina: Marcelo Tinelli homenajeó a los genios anónimos de nuestro país /
7 de mayo de 2018
Cronograma de Anses: Empieza el pago de jubilaciones y Asignación Universal
Esta semana se inicia el pago de los haberes a jubilados y pensionados nacionales. También se abona a beneficiarios de la Asignación Universal por Hijo y Progresar. El cronograma según la finalización del DNI.

A continuación, se detalla el calendario de pagos de ANSES correspondiente al mes de mayo de 2018:

Jubilaciones y Pensiones hasta $8.705:

Documentos terminados en:---- Fecha de pago
0---------------------------------------09/05/18
1---------------------------------------10/05/18
2---------------------------------------11/05/18
3--------------------------------------14/05/18
4--------------------------------------15/05/18
5--------------------------------------16/05/18
6--------------------------------------17/05/18
7--------------------------------------18/05/18
8--------------------------------------21/05/18
9--------------------------------------22/05/18

Jubilaciones y Pensiones desde $8.705:

Grupo de pago-----Documentos terminados en-----Fecha de pago
1-------------------------------0 y 1---------------------------23/05/18
2-------------------------------2 Y 3---------------------------24/05/18
3-------------------------------4 Y 5---------------------------28/05/18
4-------------------------------6 Y 7---------------------------29/05/18
5-------------------------------8 Y 9---------------------------30/05/18

Pensiones no contributivas:

Grupo de pago--------Documentos terminados en-----Fecha de pago
1---------------------------------0 Y 1--------------------------2/05/18
2---------------------------------2 Y 3--------------------------3/05/18
3---------------------------------4 Y 5--------------------------5/05/18
4---------------------------------6 Y 7--------------------------7/05/18
5---------------------------------8 Y 9--------------------------8/05/18

Asignación Universal por Hijo

Terminación de documento------ Fecha de pago

0---------------------------------------07/05/18
1---------------------------------------08/05/18
2---------------------------------------09/05/18
3---------------------------------------10/05/18
4---------------------------------------11/05/18
5---------------------------------------14/05/18
6---------------------------------------15/05/18
7---------------------------------------16/05/18
8---------------------------------------17/05/18
9---------------------------------------18/05/18

Progresar

Terminación de documento------ Fecha de pago

0---------------------------------------07/05/18
1---------------------------------------08/05/18
2---------------------------------------09/05/18
3---------------------------------------10/05/18
4---------------------------------------11/05/18
5---------------------------------------14/05/18
6---------------------------------------15/05/18
7---------------------------------------16/05/18
8---------------------------------------17/05/18
9---------------------------------------18/05/18

Embarazo

Terminación de documento------ Fecha de pago

0---------------------------------------07/05/18
1---------------------------------------08/05/18
2---------------------------------------09/05/18
3---------------------------------------10/05/18
4---------------------------------------11/05/18
5---------------------------------------14/05/18
6---------------------------------------15/05/18
7---------------------------------------16/05/18
8---------------------------------------17/05/18
9---------------------------------------18/05/18



COMPARTIR:
Notas Relacionadas
Comentarios:
Aun no hay comentarios, s�� el primero en escribir uno!
Escribir un comentario »








El Clima en Federal

°C

DEJA UN MENSAJE

 
 

ENCUESTA

 
Qué opinás del programa de Productos Esenciales de Nación?

Ayuda a la economía familiar

0,00%

No encuentro los productos

0,00%

No sirve

100,00%

       
 

DOLAR

 
COMPRA
VENTA
43.86
46.06

 

 

HORÓSCOPO

 
Sagitario
SAGITARIO (del 23 de noviembre al 21 de diciembre)

Durante la jornada de hoy tu cuerpo dará claros indicios de que necesitas prestarle más atención. Disminuye el ritmo. No tienes porque aceptar la culpa total por la finalización de la pareja. Todo en ella se hace de común acuerdo. No te tortures. Serás testigo de cambios radicales en tu entorno laboral. Felizmente tu no serás parte de ellos, aun así no bajes la guardia.Sugerencia: Se aproximarán momentos de decisiones difíciles de tomar. Prepárate para enfrentar situaciones con las que nunca habías lidiado antes.

 

NUESTROS OYENTES

   

LO MAS LEIDO DEL MES

 
Empiezan los pagos de Anses: Cronograma de Jubilaciones, AUH y Progresar
LOS CANDIDATOS DE PROYECTO FEDERAL GESTIONAN ANTE ANSES.
Continúa el pago de haberes a estatales entrerrianos
LA OFICINA DE ANSES PARA FEDERAL FINALMENTE ES UNA REALIDAD
Siniestro vial en Ruta N 22
 

RadiosNet